1 den 4´e kadar. Toplam 4 Sayfa bulundu

Konu: Alin size tab arşivi yeni+%100 dogru hemde kolay

  1. #1
    Banned

    new Alin size tab arşivi yeni+%100 dogru hemde kolay



    İşte size Karişik yeni öğrenmiş ark.lar için karma tab arşivi(Bazi yerlerinde akorlar war ama kusura bakmayin )


    E | |------4--2--0--2-----0--2-------------------|---4--2--0--2-----0--2--2----------
    B | |---2--------------4--------4--2-------------|---------------4-------------------
    G | |--------------------------------------------|-----------------------------------D | |--------------------------------------------|-----------------------------------
    A | |--------------------------------------------|-----------------------------------
    E | |--------------------------------------------|-----------------------------------
    Kendime geldim geleli dostlar Olamam kimseye düşman

    |---4--2--0--2-------0--2--------------|---0--------0--------------
    |---------------4---------4--2---------|------4--2-----4--2--2-----
    |--------------------------------------|---------------------------
    |--------------------------------------|---------------------------
    |--------------------------------------|---------------------------
    |--------------------------------------|---------------------------
    Bir şüphem yok kefenim sağlam İçerim ben bu akşam


    mor ve otesi
    E--------------------------------------------------------------------------------
    B-------0-----------------1--0--0-----------0------------------------------------
    G----------2-2--0-0---------------2-2--0--------2-2-1-1--------------------------
    D-2-3-2-------------3-3-2---------------3-2-------------3-3-2--2-3-2-0-2-0-------
    A--------------------------------------------------------------------------2-3-4-
    E--------------------------------------------------------------------------------


    E--------------------------------------------------------------------------------
    B------0----------------3-1-0-0-------------0------------------------------------
    G--------2-2--0-0---------------2-2---0-------2-2-1-1----1-----------------------
    D-2-3-2-----------3-3-2-----------------3-2-----------3-3------------------------
    A--------------------------------------------------------------------------------
    E--------------------------------------------------------------------------------

    canbaz



    direc-t
    g -------3------------------3---------------
    B -3-2-0---0-2-3-2----3-2-0---------3--2----
    e -----------------------------2-0----------

    g-------3------------------------
    B-3-2-0---0-2-3------------------
    e---------------0--2-------------

    Duman_halimiz duman

    Gönderen:eFe krcm


    D-2-4-4-4-2-4-2-020---------2-4-4-4---2-0-2-0-----2-----
    A-------------------4-------------------------4-5-----
    E-----------------------------------------------------

    D-0-222-0-------------------2----------------------
    A---------4-5-4-2---5-4-5-4---4-2------------------
    E--------------------------------------------------

    E-------------------------------------------
    B-2-4-4-4--2-0-2-0----2-4-4-4--2-0-2-0-----2
    G-----------------3--------------------3-4

    E-----------------------------------------
    B-0-2-2-2---------------------2-----------
    G---------4-3-4-3-1---4-3-4-3---3-1-------


    duman-yanibasşimdan
    e-------------------------------------------------------------------------
    B-------------------------------------------------------------------------
    G-------------------------------------------------------------------------
    D-----0-------------------0-------------------0---------------------------
    A---1---3--------------1----3--------------1-----3--------------1---------
    E-3-----------------3-------------------3--------------------3----3--1----
    sevemedim sevemedim göremedim yanıbaşımdan
    ben bugünü başından geçtiğini

    e-------------------------------------
    B-------------------------------------
    G-------------------------------------
    D-1--0-------------------------0------
    A-------3-------------------1-----3---
    E----------3-------------3------------
    heryanımdan

    e-------------------------------------------------------------------------
    B-------------------------------------------------------------------------
    G-------------------------------------------------------------------------
    D-----0-------------------0-------------------0---------------------------
    A---1---3--------------1----3--------------1-----3--------------1---------
    E-3-----------------3-------------------3--------------------3----3--0----
    gelemedim gelemedim kovaladım yanıbaşımdan
    ben oyuna yaşımdan sevdiğimi

    e-------------------------------------
    B-------------------------------------
    G-------------------------------------
    D-1--0-------------------------0------
    A-------3-------------------1-----3---
    E----------3-------------3------------
    heryanımdan


    e-------------------------------------------------------------------------
    B-------------------------------------------------------------------------
    G-------------------------------------------------------------------------
    D-----0-------------------0-------------------0---------------------------
    A---1---3--------------1----3--------------1-----3--------------1---------
    E-3-----------------3-------------------3--------------------3----3--1----
    yaşamadım yaşamadım göremedim yanıbaşımdan
    ben bugünü inadımdan geçtiğini

    e------------------------
    B------------------------
    G------------------------
    D-1--0-------------------
    A-------3----------------
    E----------3-------------
    heryanımdan



    e--------------------------------------------------------------------------------------------------
    B--------------------------------------------------------------------------------------------------
    G-5--5--5--5--5--5--5--5---------------------------------------------------------------------------
    D-5--5--5--5--5--5--5--5---5--5--5--5--5--5--5--5---3--3--3--3--3--3--3--3-XX-3-XX-3-XX-3-XX-3-XX--
    A-3--3--3--3--3--3--3--3---5--5--5--5--5--5--5--5---3--3--3--3--3--3--3--3-XX-3-XX-3-XX-3-XX-3-XX--
    E--------------------------3--3--3--3--3--3--3--3---1--1--1--1--1--1--1--1-XX-1-XX-1-XX-1-XX-1-XX--


    ellerin uzanmasın
    uzak dursun dedim
    sakın dokunmasın
    hayal ettiklerim
    bana yakışmasın
    inancım yok benim...



    bariş manco arkadasim eşşek
    e ----0-0--1-1--0------1-1--0-------1-1------0---------------------------------
    b-----------------3--3--------3--3-------3------1--------0--0-------1--0-------
    g-2--2--------------------------------------------------------------------2---- x2



    e-----------------------------------------------------------------------------
    b------0--1-----------------0---1--------------0--1---------------------------
    g---2---------2--0-------2--------2--0-------2-------2--0---------2~--------- x2



    e ----0-0--1-1--0------1-1--0--|-------1-1----0------------------------------
    b-----------------3--3---------|-3--3------3-----1------0--0-------1---0------ x2
    g-2--2-------------------------|-------------------------------------------2--
    kaç yıl oldu saymadım...........mevsımler.......



    e-5-5--3-3--1-1--0-----1-1--0---|------1-1--0---------------------------------
    b------------------3-3----------|-3-3---------3-----1-----0-0---1-0----------- x2
    g-------------------------------|--------------------------------------2------
    dun yine seni andım ....... o tatlı günlerimiz.......


    e-----------------------------------------------------------------------------
    b-----0--1-------------------0---1-----------------0--1-----------------------
    g---2--------2---0---------2-------2--0--------2-----------2--0---------2~----

    arkadasım eş arkadasım sek arakadasım essek.....


    grup 84--------------- affet
    Affet


    E-----------------------------------------------------------------
    B----3----5--6--5---3--2----2--3--2-------------------------------
    G--2---------------------3-----------3--2-2-----------------------
    D-----------------------------------------------------------------
    A-----------------------------------------------------------------
    E-----------------------------------------------------------------
    Off yine kapalı tüm kapılar

    E-----------------------------------------------------------------
    B----3----5--6--5---3--2----2--3--2-------------------------------
    G--2---------------------3-----------3--2-2-----------------------
    D-----------------------------------------------------------------
    A-----------------------------------------------------------------
    E-----------------------------------------------------------------
    Sor beni en uzak meyhaneye



    Bb Dm
    Sorda al cevabı varmıymış başkası
    Bb Dm
    Sahibi olsun yüreğimin
    Bb Dm
    Hatam var elbet ama asla büyük aşk
    Bb Dm
    Ezdirmez kendini ezilmez

    Dm Bb Dm }
    Affet ne olur bu saf deli yüreğimi }
    Dm Bb Dm }
    Ağla ağlaki sula kurak bedenimi } 2 kere
    Bb Dm }
    Olmadımki senden başkasıyla asla }
    Bb Dm }
    Kastınmı var söyle bu cana }

    Bb Dm
    aaaaaaa aaa aaaaaaa aaaa

    Bb Dm
    Olmadımı kalamadınmı yanımda
    Bb Dm
    Sensiz bir hiçmişim ben aslında
    Bb Dm
    Hadi gel gel kurtar acımdan
    Bb Dm
    Sıcaklığın hep benimle yanımda

    E-----------------------------------------------------------------
    B----3----5--6--5---3--2----2--3--2-------------------------------
    G--2---------------------3-----------3--2-2-----------------------
    D-----------------------------------------------------------------
    A-----------------------------------------------------------------
    E-----------------------------------------------------------------
    Dm Bb Dm
    Affet ne olur bu saf deli yüreğimi

    E-----------------------------------------------------------------
    B----3----5--6--5---3--2----2--3--2-------------------------------
    G--2---------------------3-----------3--2-2-----------------------
    D-----------------------------------------------------------------
    A-----------------------------------------------------------------
    E----------------------------------------------------------------
    Dm Bb Dm
    Ağla ağlaki sula kurak bedenimi

    E-----------------------------------------------------------------
    B---------------------3---5--3--3---5--6--------------------------
    G-3---2--3-3---2--3-----------------------------------------------
    D-----------------------------------------------------------------
    A-----------------------------------------------------------------
    E-----------------------------------------------------------------
    Bb Dm
    Olmadımki senden başkasıyla asla

    E-----------------------------------------------------------------
    B---------------------3---5--3--3---------------------------------
    G-3---2--3-3---2--3-----------------------------------------------
    D-----------------------------------------------------------------
    A-----------------------------------------------------------------
    E-----------------------------------------------------------------


    bariş manco donence
    ( E:---------------------------------------------------------
    ( B:---------------------------------------------------------
    2 ( G:---------------------------------------------------------
    kez ( D:---------------------------------------------------------
    ( A:------------------3-2------------------------------------
    ( E:--0---0-1---1-3-------3-5--------------------------------




    ( E:--------------------/-------------------------------------
    ( B:--------------------/-------------------------------------
    2 ( G:--------------------/-------------------------------------
    kez ( D:--2-2---2-2-----0---/---3-3---3-3-----0-------------------
    ( A:--------------3-----/---------------3---------------------
    ( E:--------------------/-------------------------------------




    E:---------------------------------------------------------------------------
    B:---------------------------------------------------------------------------
    G:---------------------------------------------------------------------------
    D:--4-4-4---2-4-5---5-7-9------------------------5-7-9-----------------------
    A:------------------------9---9-7-5-7---9-7-9-10-------9---7-5-7---5-3-2-----
    E:---------------------------------------------------------------------------


    ( E:--------------------/-------------------------------------
    ( B:--------------------/-------------------------------------
    2 ( G:--------------------/-------------------------------------
    kez ( D:--2-2---2-2-----0---/---3-3---3-3-----0-------------------
    ( A:--------------3-----/---------------3---------------------
    ( E:--------------------/-------------------------------------


    E:---------------------------------------------------------------------------
    B:---------------------------------------------------------------------------
    G:---------------------------------------------------------------------------
    D:-4-4-4---4-2-4-5---7-9------------------------5-7-9------------------------
    A:-----------------------9---9-7-5-7---9-7-9-10-------9---7-5-7-7-5-3-2------
    E:---------------------------------------------------------------------------


    ( E:--------------------/-------------------------------------
    ( B:--------------------/-------------------------------------
    2 ( G:--------------------/-------------------------------------
    kez ( D:--2-2---2-2-----0---/---3-3---3-3-----0-------------------
    ( A:--------------3-----/---------------3---------------------
    ( E:--------------------/-------------------------------------


    E:---------------------------------------------------------------------------
    B:---------------------------------------------------------------------------
    G:---------------------------------------------------------------------------
    D:-4-4-4---4-2-4-5---7-9------------------------5-7-9------------------------
    A:-----------------------9---9-7-5-7---9-7-9-10-------9---7-5-7-7-5-3-2------
    E:---------------------------------------------------------------------------


    ( E:--------------------/-------------------------------------
    ( B:--------------------/-------------------------------------
    2 ( G:--------------------/-------------------------------------
    kez ( D:--2-2---2-2-----0---/---3-3---3-3-----0-------------------
    ( A:--------------3-----/---------------3---------------------
    ( E:--------------------/-------------------------------------


    kurban insanlar
    ||----------------------|----------------------|----------------------|----------------------|----------------------|
    B||----------------------|----------------------|----------------------|----------------------|----------------------|
    G||----------------------|----------------------|----------------------|----------------------|----------------------|
    D||----------------------|----------------------|----------------------|----------------------|----------------------|
    A||------------9----9----|------------5----5----|------------9----9----|------------5----5----|------------9----9----|
    E||--7----7--------------|--7----7--------------|--7----7--------------|--7----7--------------|--5----5--------------|



    ----------------------|----------------------|----------------------|----------------------|----------------------|
    ----------------------|----------------------|----------------------|----------------------|----------------------|
    ----------------------|----------------------|----------------------|----------------------|----------------------|
    ----------------------|----------------------|----------------------|------------4----4----|----------------------|
    ------------5----5----|------------9----9----|------------5----5----|----------------------|------------5----5----|
    --5----5--------------|--5----5--------------|--5----5--------------|--3----3--------------|--3----3--------------|



    ----------------------|----------------------|----------------------|----------------------|----------------------|
    ----------------------|----------------------|----------------------|----------------------|----------------------|
    ----------------------|----------------------|----------------------|----------------------|----------------------|
    ------------4----4----|----------------------|----------------------|----------------------|----------------------|
    ----------------------|------------5----5----|------------9----9----|------------7----7----|------------9---------|
    --3----3--------------|--3----3--------------|--5----5--------------|--5----5--------------|--5----5---------5----|



    -----------------------|----------------------|----------------------|----------------------|----------------------|
    -----------------------|----------------------|----------------------|----------------------|----------------------|
    -----------------------|----------------------|----------------------|----------------------|----------------------|
    -----------------------|----------------------|----------------------|----------------------|----------------------|
    --10---------9---------|------------9----9----|------------5----5----|------------9----9----|------------5----5----|
    --------5---------5----|--7----7--------------|--7----7--------------|--7----7--------------|--7----7--------------|



    ----------------------|----------------------|----------------------|----------------------|----------------------|
    ----------------------|----------------------|----------------------|----------------------|----------------------|
    ----------------------|----------------------|----------------------|----------------------|----------------------|
    ----------------------|----------------------|----------------------|----------------------|------------4----4----|
    ------------9----9----|------------5----5----|------------9----9----|------------5----5----|----------------------|
    --5----5--------------|--5----5--------------|--5----5--------------|--5----5--------------|--3----3--------------|



    ----------------------|----------------------|----------------------|----------------------|----------------------|
    ----------------------|----------------------|----------------------|----------------------|----------------------|
    ----------------------|----------------------|----------------------|----------------------|----------------------|
    ----------------------|------------4----4----|----------------------|----------------------|----------------------|
    ------------5----5----|----------------------|------------5----5----|------------9----9----|------------7----7----|
    --3----3--------------|--3----3--------------|--3----3--------------|--5----5--------------|--5----5--------------|


    sarkyi mysongbook a gondrdm orya bakablrsiniz tamami cktia bu tab yaz ma isi cok SIKIYO sozlerde B5 A5 G5 ve F#5 leri kullanin bilgi olsun maksatli sondaki soloda burdaki solodan takilmislar idare ediverin GOKHAN GON cikartip yazar zati ona teskkur ediyoz diger kurban sarkilari için simdi 4TEMMUZda cikacak DUMAN "seni kendime sakladim" albümündeki sarkilar icin arkadasa gazimizi verelim lutfen ben bi DUman hastasiyimda GOKHANdan rica ediyouz


    ----------------------|-----------------------||--------------------------|--------------------------|
    ----------------------|-----------------------||-----------2--3--3--3--2--|--3--3--3--2--3--2--3--5--|
    ----------------------|-----------------------||*----2--4-----------------|--------------------------|
    ----------------------|-----------------------||*-------------------------|--------------------------|
    ------------9---------|--10---------9---------||--------------------------|--------------------------|
    --5----5---------5----|--------5---------5----||--------------------------|--------------------------|



    -------------------------|--------------------------|-------------------------|--------------------------|
    ----------2--3--3--3--2--|--3--3--3--2--3--2--3--5--|----------2--3--3--3--2--|--3--3--3--2--3--2--3--5--|
    ----2--4-----------------|--------------------------|----2--4-----------------|--------------------------|
    -------------------------|--------------------------|-------------------------|--------------------------|
    -------------------------|--------------------------|-------------------------|--------------------------|
    -------------------------|--------------------------|-------------------------|--------------------------|



    --------------------------|---------------------------||-------------------|-----------------------|----------||
    --7--7--5--5--3--3--2--2--|--5--5--3--3--2--2--3--3---||-------------------|-----------3--2--------|----------||
    --------------------------|--------------------------*||--4----------------|------x----------4--2--|----------||
    --------------------------|--------------------------*||-------------------|-----------------------|----------||
    --------------------------|---------------------------||-------------------|-----------------------|----------||
    --------------------------|---------------------------||-------------------|-----------------------|----------||


    duman yurekten
    E||--------------------------------------|--0---------------------|
    B||--------------------------------------|-----3------------------|
    G||--------------------------------------|---------2--0-----------|
    D||--5--5-7--5---4--7--7-9--7--4---------|---------------2--0-----|
    A||------------------------------7-5-7---|------------------------|
    E||--------------------------------------|------------------------|


    E||--------------------------------------|
    B||--------------------------------------|
    G||--------------------------------------|
    D||--5--5-7--5---4--7--7-9--7--4---------|
    A||------------------------------7-5-7---|
    E||--------------------------------------|


    duman ojeee
    e--------------------1--1--0--5--5----
    B--------0--1-------------------------
    G--2--2--------2--2-------------------
    D-------------------------------------
    A-------------------------------------
    E-------------------------------------



    e-------------------------------------
    B--------0--1--------------1--0-------
    G--2--2--------2--2--1--1-------------
    D-------------------------------------
    A-------------------------------------
    E-------------------------------------



    gidiyorum gözüm arkada'dan sonra:
    (nakarata kadar olan sözler arasındaki solo
    bu şekilde atılacak."ne de güzel durmuş yan
    yana" gibi yerlerden sonra yani.)



    e-------------------------------------
    B---------0--1--0---------------------
    G---2--2-----------2-------------1----
    D-------------------------------------
    A-------------------------------------
    E-------------------------------------

  2. #2
    Binbaşı
    custah - ait Kullanıcı Resmi (Avatar)

    Standart

    teşekkürler..

  3. #3
    Banned

    Standart

    onemli deil ark.

  4. #4
    Yeni Üye

    Standart

    İşime yaradı aslında kolay ve basit

Benzer Konular

  1. işte size yeni bir online
    By ABYSS in forum Online Oyunlar
    Cevaplar: 5
    Bölüm Listesi: 01-26-2009, 05:08 PM
  2. Cevaplar: 0
    Bölüm Listesi: 04-24-2007, 11:44 PM

Beğenilen Sayfayı İşaretleyin

Beğenilen Sayfayı İşaretleyin

Yetkileriniz

  • You may not post new threads
  • You may not post replies
  • Eklenti Ekleyemezsiniz
  • You may not edit your posts
  •  
[Gizlilik Politikası]-[UslanmaM Kuralları]-[UslanmaM İletişim/Contact]